999
DXF file: 2447653_10_9.dxf
999
Pro/ENGINEER 2011310 by Parametric Technology Corporation
  0
SECTION
  2
HEADER
  9
$EXTMAX
 10
594.0
 20
420.0
 30
0.0
  9
$EXTMIN
 10
0.0
 20
0.0
 30
0.0
  9
$LIMMIN
 10
0.0
 20
0.0
  9
$LIMMAX
 10
594.0
 20
420.0
  9
$VIEWCTR
 10
297.0
 20
210.0
  9
$VIEWSIZE
 40
420.0
  9
$CLAYER
  8
0
  9
$LTSCALE
 40
32.67
  9
$CELTYPE
  6
BYLAYER
  9
$DIMSCALE
 40
1.0
  9
$DIMASZ
 40
3.5
  9
$DIMEXO
 40
3.7125
  9
$DIMDLI
 40
22.572
  9
$DIMEXE
 40
10.692
  9
$DIMCEN
 40
5.346
  9
$DIMLFAC
 40
1.0
  9
$DIMBLK
  1
_FILLED
  9
$DIMTXT
 40
3.5
  9
$PDMODE
 70
3
  9
$PDSIZE
 40
8.0
  9
$TILEMODE
 70
1
  0
ENDSEC
  0
SECTION
  2
TABLES
  0
TABLE
  2
LTYPE
 70
6
  0
LTYPE
  2
BYBLOCK
 70
0
  3

 72
65
 73
0
 40
0.0
  0
LTYPE
  2
BYLAYER
 70
0
  3

 72
65
 73
0
 40
0.0
  0
LTYPE
  2
CONTINUOUS
 70
64
  3
Solid line
 72
65
 73
0
 40
0.0
  0
LTYPE
  2
CENTER
 70
64
  3
____ _ ____ _ ____ _ ____ _ ____ _ ____ _ ____
 72
65
 73
4
 40
0.6
 49
0.375
 49
-0.075
 49
0.075
 49
-0.075
  0
LTYPE
  2
HIDDEN
 70
64
  3
- - - - - - - - - - - - - - - - - - - -
 72
65
 73
2
 40
0.2
 49
0.1
 49
-0.1
  0
LTYPE
  2
PHANTOM
 70
64
  3
_____ _ _ _____ _ _ _____ _ _ _____
 72
65
 73
6
 40
0.8
 49
0.45
 49
-0.05
 49
0.1
 49
-0.05
 49
0.1
 49
-0.05
  0
LTYPE
  2
DOT
 70
64
  3
. . . . . . . . . . . . . . . . . . . .
 72
65
 73
2
 40
0.2
 49
0.1
 49
-0.1
  0
LTYPE
  2
DASHED
 70
64
  3
- - - - - - - - - - - - - - - - - - - -
 72
65
 73
2
 40
0.2
 49
0.1
 49
-0.1
  0
ENDTAB
  0
TABLE
  2
LAYER
 70
36
  0
LAYER
  2
0
 70
0
 62
7
  6
CONTINUOUS
  0
LAYER
  2
DEFAULT_1
 70
0
 62
7
  6
CENTER
  0
LAYER
  2
DEFAULT_2
 70
0
 62
8
  6
HIDDEN
  0
LAYER
  2
DEFAULT_3
 70
0
 62
7
  6
PHANTOM
  0
LAYER
  2
0_P_DRW_ONLY
 70
0
 62
7
  6
CONTINUOUS
  0
LAYER
  2
0_P_SEAL_ELEMENTS
 70
0
 62
7
  6
CONTINUOUS
  0
LAYER
  2
0_P_THREAD_BLUE_SURFACE
 70
0
 62
7
  6
CONTINUOUS
  0
LAYER
  2
0_P_VIS_3D_VISUAL
 70
0
 62
7
  6
CONTINUOUS
  0
LAYER
  2
1_P_AXES
 70
0
 62
7
  6
CONTINUOUS
  0
LAYER
  2
1_P_CSYS
 70
0
 62
7
  6
CONTINUOUS
  0
LAYER
  2
1_P_PLACE_ELEMENTS
 70
0
 62
7
  6
CONTINUOUS
  0
LAYER
  2
1_P_PLANES
 70
0
 62
7
  6
CONTINUOUS
  0
LAYER
  2
1_P_STANDARDS
 70
0
 62
7
  6
CONTINUOUS
  0
LAYER
  2
1_P_THREAD_NOTES
 70
0
 62
7
  6
CONTINUOUS
  0
LAYER
  2
2_3D_ANNOTATION
 70
0
 62
7
  6
CONTINUOUS
  0
LAYER
  2
2_COSMETICS
 70
0
 62
7
  6
CONTINUOUS
  0
LAYER
  2
2_CURVES
 70
0
 62
7
  6
CONTINUOUS
  0
LAYER
  2
2_ECG
 70
0
 62
7
  6
CONTINUOUS
  0
LAYER
  2
2_ECG_3D_ANNOTATION
 70
0
 62
7
  6
CONTINUOUS
  0
LAYER
  2
2_ECG_ASM_BASED
 70
0
 62
7
  6
CONTINUOUS
  0
LAYER
  2
2_ECG_CURVES
 70
0
 62
7
  6
CONTINUOUS
  0
LAYER
  2
2_ECG_DATUM
 70
0
 62
7
  6
CONTINUOUS
  0
LAYER
  2
2_ECG_SURFACES
 70
0
 62
7
  6
CONTINUOUS
  0
LAYER
  2
2_POINTS
 70
0
 62
7
  6
CONTINUOUS
  0
LAYER
  2
2_P_THREAD
 70
0
 62
7
  6
CONTINUOUS
  0
LAYER
  2
2_QUILTS
 70
0
 62
7
  6
CONTINUOUS
  0
LAYER
  2
2_SKETCH
 70
0
 62
7
  6
CONTINUOUS
  0
LAYER
  2
2_SURFACES
 70
0
 62
7
  6
CONTINUOUS
  0
LAYER
  2
2_SURFACES_TEMP
 70
0
 62
7
  6
CONTINUOUS
  0
LAYER
  2
2_VOLGEOM
 70
0
 62
7
  6
CONTINUOUS
  0
LAYER
  2
3_ALL_SYMBOLS
 70
0
 62
7
  6
CONTINUOUS
  0
LAYER
  2
3_P_USER_WORKBENCH
 70
0
 62
7
  6
CONTINUOUS
  0
LAYER
  2
XSEC_DATUMS
 70
0
 62
7
  6
CONTINUOUS
  0
ENDTAB
  0
TABLE
  2
STYLE
 70
1
  0
STYLE
  2
STANDARD
 70
0
 40
0.0
 41
0.85
 50
0.0
 71
0
 42
0.2
  3
txt
  4

  0
STYLE
  2
TEXTSTYLE_1
 70
0
 40
0.0
 41
0.8
 50
0.0
 71
0
 42
0.2
  3
gdt
  4

  0
STYLE
  2
TEXTSTYLE_2
 70
0
 40
0.0
 41
0.85
 50
0.0
 71
0
 42
0.2
  3
txt
  4

  0
ENDTAB
  0
ENDSEC
  0
SECTION
  2
BLOCKS
  0
ENDSEC
  0
SECTION
  2
ENTITIES
  0
TEXT
  8
0
 62
2
  6
CONTINUOUS
 10
292.5751838832
 20
276.9197928343
  7
TEXTSTYLE_2
 40
3.5
  1
FESTO
 41
0.8095238095
 72
0
  0
TEXT
  8
0
 62
2
  6
CONTINUOUS
 10
292.5751838832
 20
271.6697928343
  7
TEXTSTYLE_2
 40
3.5
  1
573606   VTUG-10
 41
0.7663690476
 72
0
  0
TEXT
  8
0
 62
2
  6
CONTINUOUS
 10
292.5751838832
 20
266.4197928343
  7
TEXTSTYLE_2
 40
3.5
  1
9
 41
0.7857142857
 72
0
  0
TEXT
  8
0
 62
2
  6
CONTINUOUS
 10
295.9918505499
 20
266.4197928343
  7
TEXTSTYLE_2
 40
3.5
  1
 Ventilplätze
 41
0.6697802198
 72
0
  0
TEXT
  8
0
 62
2
  6
CONTINUOUS
 10
292.5751838832
 20
261.1697928343
  7
TEXTSTYLE_2
 40
3.5
  1
9
 41
0.7857142857
 72
0
  0
TEXT
  8
0
 62
2
  6
CONTINUOUS
 10
295.9918505499
 20
261.1697928343
  7
TEXTSTYLE_2
 40
3.5
  1
 Valve positions
 41
0.6845238095
 72
0
  0
LINE
  8
0
 62
7
  6
CONTINUOUS
 10
0.0
 20
0.0
 11
0.0
 21
420.0
  0
LINE
  8
0
 62
7
  6
CONTINUOUS
 10
0.0
 20
0.0
 11
594.0
 21
0.0
  0
LINE
  8
0
 62
7
  6
CONTINUOUS
 10
0.0
 20
420.0
 11
594.0
 21
420.0
  0
LINE
  8
0
 62
7
  6
CONTINUOUS
 10
594.0
 20
0.0
 11
594.0
 21
420.0
  0
LINE
  8
2_COSMETICS
 62
8
  6
PHANTOM
 10
183.021570602
 20
252.5655154905
 11
183.021570602
 21
237.5655154905
  0
LINE
  8
2_COSMETICS
 62
8
  6
PHANTOM
 10
183.021570602
 20
161.0655154905
 11
183.021570602
 21
176.0655154905
  0
LINE
  8
2_COSMETICS
 62
8
  6
PHANTOM
 10
232.521570602
 20
252.5655154905
 11
232.521570602
 21
237.5655154905
  0
LINE
  8
2_COSMETICS
 62
8
  6
PHANTOM
 10
232.521570602
 20
161.0655154905
 11
232.521570602
 21
176.0655154905
  0
LINE
  8
2_COSMETICS
 62
8
  6
PHANTOM
 10
393.021570602
 20
161.0655154905
 11
378.021570602
 21
161.0655154905
  0
LINE
  8
2_COSMETICS
 62
8
  6
PHANTOM
 10
183.021570602
 20
161.0655154905
 11
198.021570602
 21
161.0655154905
  0
LINE
  8
2_COSMETICS
 62
8
  6
PHANTOM
 10
232.521570602
 20
161.0655154905
 11
247.521570602
 21
161.0655154905
  0
LINE
  8
2_COSMETICS
 62
7
  6
CONTINUOUS
 10
243.521570602
 20
180.5655154905
 11
243.521570602
 21
202.7655154905
  0
LINE
  8
2_COSMETICS
 62
7
  6
CONTINUOUS
 10
285.021570602
 20
165.5655154905
 11
258.521570602
 21
165.5655154905
  0
LINE
  8
2_COSMETICS
 62
7
  6
CONTINUOUS
 10
375.021570602
 20
171.0655154905
 11
290.021570602
 21
171.0655154905
  0
LINE
  8
2_COSMETICS
 62
7
  6
CONTINUOUS
 10
287.521570602
 20
215.2655154905
 11
287.521570602
 21
205.3655154905
  0
LINE
  8
2_COSMETICS
 62
7
  6
CONTINUOUS
 10
287.521570602
 20
168.5655154905
 11
287.521570602
 21
168.0655154905
  0
LINE
  8
2_COSMETICS
 62
7
  6
CONTINUOUS
 10
290.021570602
 20
202.8655154905
 11
375.021570602
 21
202.8655154905
  0
LINE
  8
2_COSMETICS
 62
7
  6
CONTINUOUS
 10
258.521570602
 20
217.7655154905
 11
285.021570602
 21
217.7655154905
  0
LINE
  8
2_COSMETICS
 62
8
  6
PHANTOM
 10
393.021570602
 20
252.5655154905
 11
378.021570602
 21
252.5655154905
  0
LINE
  8
2_COSMETICS
 62
8
  6
PHANTOM
 10
183.021570602
 20
252.5655154905
 11
198.021570602
 21
252.5655154905
  0
LINE
  8
2_COSMETICS
 62
8
  6
PHANTOM
 10
232.521570602
 20
252.5655154905
 11
247.521570602
 21
252.5655154905
  0
LINE
  8
2_COSMETICS
 62
7
  6
CONTINUOUS
 10
382.021570602
 20
195.8655154905
 11
382.021570602
 21
178.0655154905
  0
LINE
  8
2_COSMETICS
 62
8
  6
PHANTOM
 10
393.021570602
 20
252.5655154905
 11
393.021570602
 21
237.5655154905
  0
LINE
  8
2_COSMETICS
 62
8
  6
PHANTOM
 10
393.021570602
 20
161.0655154905
 11
393.021570602
 21
176.0655154905
  0
ARC
  8
2_COSMETICS
 62
7
  6
CONTINUOUS
 10
258.521570602
 20
180.5655154905
 40
15.0
 50
180.0
 51
270.0
  0
ARC
  8
2_COSMETICS
 62
7
  6
CONTINUOUS
 10
258.521570602
 20
202.7655154905
 40
15.0
 50
90.0
 51
180.0
  0
ARC
  8
2_COSMETICS
 62
7
  6
CONTINUOUS
 10
375.021570602
 20
195.8655154905
 40
7.0
 50
0.0
 51
90.0
  0
ARC
  8
2_COSMETICS
 62
7
  6
CONTINUOUS
 10
375.021570602
 20
178.0655154905
 40
7.0
 50
270.0
 51
360.0
  0
ARC
  8
2_COSMETICS
 62
7
  6
CONTINUOUS
 10
290.021570602
 20
168.5655154905
 40
2.5
 50
90.0
 51
180.0
  0
ARC
  8
2_COSMETICS
 62
7
  6
CONTINUOUS
 10
285.021570602
 20
168.0655154905
 40
2.5
 50
270.0
 51
360.0
  0
ARC
  8
2_COSMETICS
 62
7
  6
CONTINUOUS
 10
285.021570602
 20
215.2655154905
 40
2.5
 50
0.0
 51
90.0
  0
ARC
  8
2_COSMETICS
 62
7
  6
CONTINUOUS
 10
290.021570602
 20
205.3655154905
 40
2.5
 50
180.0
 51
270.0
  0
CIRCLE
  8
2_COSMETICS
 62
7
  6
CONTINUOUS
 10
380.021570602
 20
218.2655154905
 40
2.25
  0
CIRCLE
  8
2_COSMETICS
 62
7
  6
CONTINUOUS
 10
380.021570602
 20
166.0655154905
 40
2.25
  0
CIRCLE
  8
2_COSMETICS
 62
7
  6
CONTINUOUS
 10
245.521570602
 20
166.0655154905
 40
2.25
  0
CIRCLE
  8
2_COSMETICS
 62
7
  6
CONTINUOUS
 10
245.521570602
 20
218.2655154905
 40
2.25
  0
CIRCLE
  8
2_COSMETICS
 62
7
  6
CONTINUOUS
 10
312.771570602
 20
218.2655154905
 40
2.25
  0
CIRCLE
  8
2_COSMETICS
 62
7
  6
CONTINUOUS
 10
312.771570602
 20
166.0655154905
 40
2.25
  0
ENDSEC
  0
EOF
