999
DXF file: 2447653_10_20.dxf
999
Pro/ENGINEER 2011310 by Parametric Technology Corporation
  0
SECTION
  2
HEADER
  9
$EXTMAX
 10
594.0
 20
420.0
 30
0.0
  9
$EXTMIN
 10
0.0
 20
0.0
 30
0.0
  9
$LIMMIN
 10
0.0
 20
0.0
  9
$LIMMAX
 10
594.0
 20
420.0
  9
$VIEWCTR
 10
297.0
 20
210.0
  9
$VIEWSIZE
 40
420.0
  9
$CLAYER
  8
0
  9
$LTSCALE
 40
32.67
  9
$CELTYPE
  6
BYLAYER
  9
$DIMSCALE
 40
1.0
  9
$DIMASZ
 40
3.5
  9
$DIMEXO
 40
3.7125
  9
$DIMDLI
 40
22.572
  9
$DIMEXE
 40
10.692
  9
$DIMCEN
 40
5.346
  9
$DIMLFAC
 40
1.0
  9
$DIMBLK
  1
_FILLED
  9
$DIMTXT
 40
3.5
  9
$PDMODE
 70
3
  9
$PDSIZE
 40
8.0
  9
$TILEMODE
 70
1
  0
ENDSEC
  0
SECTION
  2
TABLES
  0
TABLE
  2
LTYPE
 70
6
  0
LTYPE
  2
BYBLOCK
 70
0
  3

 72
65
 73
0
 40
0.0
  0
LTYPE
  2
BYLAYER
 70
0
  3

 72
65
 73
0
 40
0.0
  0
LTYPE
  2
CONTINUOUS
 70
64
  3
Solid line
 72
65
 73
0
 40
0.0
  0
LTYPE
  2
CENTER
 70
64
  3
____ _ ____ _ ____ _ ____ _ ____ _ ____ _ ____
 72
65
 73
4
 40
0.6
 49
0.375
 49
-0.075
 49
0.075
 49
-0.075
  0
LTYPE
  2
HIDDEN
 70
64
  3
- - - - - - - - - - - - - - - - - - - -
 72
65
 73
2
 40
0.2
 49
0.1
 49
-0.1
  0
LTYPE
  2
PHANTOM
 70
64
  3
_____ _ _ _____ _ _ _____ _ _ _____
 72
65
 73
6
 40
0.8
 49
0.45
 49
-0.05
 49
0.1
 49
-0.05
 49
0.1
 49
-0.05
  0
LTYPE
  2
DOT
 70
64
  3
. . . . . . . . . . . . . . . . . . . .
 72
65
 73
2
 40
0.2
 49
0.1
 49
-0.1
  0
LTYPE
  2
DASHED
 70
64
  3
- - - - - - - - - - - - - - - - - - - -
 72
65
 73
2
 40
0.2
 49
0.1
 49
-0.1
  0
ENDTAB
  0
TABLE
  2
LAYER
 70
36
  0
LAYER
  2
0
 70
0
 62
7
  6
CONTINUOUS
  0
LAYER
  2
DEFAULT_1
 70
0
 62
7
  6
CENTER
  0
LAYER
  2
DEFAULT_2
 70
0
 62
8
  6
HIDDEN
  0
LAYER
  2
DEFAULT_3
 70
0
 62
7
  6
PHANTOM
  0
LAYER
  2
0_P_DRW_ONLY
 70
0
 62
7
  6
CONTINUOUS
  0
LAYER
  2
0_P_SEAL_ELEMENTS
 70
0
 62
7
  6
CONTINUOUS
  0
LAYER
  2
0_P_THREAD_BLUE_SURFACE
 70
0
 62
7
  6
CONTINUOUS
  0
LAYER
  2
0_P_VIS_3D_VISUAL
 70
0
 62
7
  6
CONTINUOUS
  0
LAYER
  2
1_P_AXES
 70
0
 62
7
  6
CONTINUOUS
  0
LAYER
  2
1_P_CSYS
 70
0
 62
7
  6
CONTINUOUS
  0
LAYER
  2
1_P_PLACE_ELEMENTS
 70
0
 62
7
  6
CONTINUOUS
  0
LAYER
  2
1_P_PLANES
 70
0
 62
7
  6
CONTINUOUS
  0
LAYER
  2
1_P_STANDARDS
 70
0
 62
7
  6
CONTINUOUS
  0
LAYER
  2
1_P_THREAD_NOTES
 70
0
 62
7
  6
CONTINUOUS
  0
LAYER
  2
2_3D_ANNOTATION
 70
0
 62
7
  6
CONTINUOUS
  0
LAYER
  2
2_COSMETICS
 70
0
 62
7
  6
CONTINUOUS
  0
LAYER
  2
2_CURVES
 70
0
 62
7
  6
CONTINUOUS
  0
LAYER
  2
2_ECG
 70
0
 62
7
  6
CONTINUOUS
  0
LAYER
  2
2_ECG_3D_ANNOTATION
 70
0
 62
7
  6
CONTINUOUS
  0
LAYER
  2
2_ECG_ASM_BASED
 70
0
 62
7
  6
CONTINUOUS
  0
LAYER
  2
2_ECG_CURVES
 70
0
 62
7
  6
CONTINUOUS
  0
LAYER
  2
2_ECG_DATUM
 70
0
 62
7
  6
CONTINUOUS
  0
LAYER
  2
2_ECG_SURFACES
 70
0
 62
7
  6
CONTINUOUS
  0
LAYER
  2
2_POINTS
 70
0
 62
7
  6
CONTINUOUS
  0
LAYER
  2
2_P_THREAD
 70
0
 62
7
  6
CONTINUOUS
  0
LAYER
  2
2_QUILTS
 70
0
 62
7
  6
CONTINUOUS
  0
LAYER
  2
2_SKETCH
 70
0
 62
7
  6
CONTINUOUS
  0
LAYER
  2
2_SURFACES
 70
0
 62
7
  6
CONTINUOUS
  0
LAYER
  2
2_SURFACES_TEMP
 70
0
 62
7
  6
CONTINUOUS
  0
LAYER
  2
2_VOLGEOM
 70
0
 62
7
  6
CONTINUOUS
  0
LAYER
  2
3_ALL_SYMBOLS
 70
0
 62
7
  6
CONTINUOUS
  0
LAYER
  2
3_P_USER_WORKBENCH
 70
0
 62
7
  6
CONTINUOUS
  0
LAYER
  2
XSEC_DATUMS
 70
0
 62
7
  6
CONTINUOUS
  0
ENDTAB
  0
TABLE
  2
STYLE
 70
1
  0
STYLE
  2
STANDARD
 70
0
 40
0.0
 41
0.85
 50
0.0
 71
0
 42
0.2
  3
txt
  4

  0
STYLE
  2
TEXTSTYLE_1
 70
0
 40
0.0
 41
0.8
 50
0.0
 71
0
 42
0.2
  3
gdt
  4

  0
STYLE
  2
TEXTSTYLE_2
 70
0
 40
0.0
 41
0.85
 50
0.0
 71
0
 42
0.2
  3
txt
  4

  0
ENDTAB
  0
ENDSEC
  0
SECTION
  2
BLOCKS
  0
ENDSEC
  0
SECTION
  2
ENTITIES
  0
TEXT
  8
0
 62
2
  6
CONTINUOUS
 10
303.0353339076
 20
275.0754924436
  7
TEXTSTYLE_2
 40
3.5
  1
FESTO
 41
0.8095238095
 72
0
  0
TEXT
  8
0
 62
2
  6
CONTINUOUS
 10
303.0353339076
 20
269.8254924436
  7
TEXTSTYLE_2
 40
3.5
  1
573606   VTUG-10
 41
0.7663690476
 72
0
  0
TEXT
  8
0
 62
2
  6
CONTINUOUS
 10
303.0353339076
 20
264.5754924436
  7
TEXTSTYLE_2
 40
3.5
  1
20
 41
0.7857142857
 72
0
  0
TEXT
  8
0
 62
2
  6
CONTINUOUS
 10
309.2020005743
 20
264.5754924436
  7
TEXTSTYLE_2
 40
3.5
  1
 Ventilplätze
 41
0.6697802198
 72
0
  0
TEXT
  8
0
 62
2
  6
CONTINUOUS
 10
303.0353339076
 20
259.3254924436
  7
TEXTSTYLE_2
 40
3.5
  1
20
 41
0.7857142857
 72
0
  0
TEXT
  8
0
 62
2
  6
CONTINUOUS
 10
309.2020005743
 20
259.3254924436
  7
TEXTSTYLE_2
 40
3.5
  1
 Valve positions
 41
0.6845238095
 72
0
  0
LINE
  8
0
 62
7
  6
CONTINUOUS
 10
0.0
 20
0.0
 11
0.0
 21
420.0
  0
LINE
  8
0
 62
7
  6
CONTINUOUS
 10
0.0
 20
0.0
 11
594.0
 21
0.0
  0
LINE
  8
0
 62
7
  6
CONTINUOUS
 10
0.0
 20
420.0
 11
594.0
 21
420.0
  0
LINE
  8
0
 62
7
  6
CONTINUOUS
 10
594.0
 20
0.0
 11
594.0
 21
420.0
  0
LINE
  8
2_COSMETICS
 62
8
  6
PHANTOM
 10
138.0903182826
 20
251.6342580686
 11
138.0903182826
 21
236.6342580686
  0
LINE
  8
2_COSMETICS
 62
8
  6
PHANTOM
 10
138.0903182826
 20
160.1342580686
 11
138.0903182826
 21
175.1342580686
  0
LINE
  8
2_COSMETICS
 62
8
  6
PHANTOM
 10
187.5903182826
 20
251.6342580686
 11
187.5903182826
 21
236.6342580686
  0
LINE
  8
2_COSMETICS
 62
8
  6
PHANTOM
 10
187.5903182826
 20
160.1342580686
 11
187.5903182826
 21
175.1342580686
  0
LINE
  8
2_COSMETICS
 62
7
  6
CONTINUOUS
 10
198.5903182826
 20
179.6342580686
 11
198.5903182826
 21
201.8342580686
  0
LINE
  8
2_COSMETICS
 62
7
  6
CONTINUOUS
 10
242.5903182826
 20
214.3342580686
 11
242.5903182826
 21
204.4342580686
  0
LINE
  8
2_COSMETICS
 62
7
  6
CONTINUOUS
 10
242.5903182826
 20
167.6342580686
 11
242.5903182826
 21
167.1342580686
  0
LINE
  8
2_COSMETICS
 62
8
  6
PHANTOM
 10
463.5903182826
 20
160.1342580686
 11
448.5903182826
 21
160.1342580686
  0
LINE
  8
2_COSMETICS
 62
8
  6
PHANTOM
 10
138.0903182826
 20
160.1342580686
 11
153.0903182826
 21
160.1342580686
  0
LINE
  8
2_COSMETICS
 62
8
  6
PHANTOM
 10
187.5903182826
 20
160.1342580686
 11
202.5903182826
 21
160.1342580686
  0
LINE
  8
2_COSMETICS
 62
7
  6
CONTINUOUS
 10
240.0903182826
 20
164.6342580686
 11
213.5903182826
 21
164.6342580686
  0
LINE
  8
2_COSMETICS
 62
7
  6
CONTINUOUS
 10
445.5903182826
 20
170.1342580686
 11
245.0903182826
 21
170.1342580686
  0
LINE
  8
2_COSMETICS
 62
7
  6
CONTINUOUS
 10
245.0903182826
 20
201.9342580686
 11
445.5903182826
 21
201.9342580686
  0
LINE
  8
2_COSMETICS
 62
7
  6
CONTINUOUS
 10
213.5903182826
 20
216.8342580686
 11
240.0903182826
 21
216.8342580686
  0
LINE
  8
2_COSMETICS
 62
8
  6
PHANTOM
 10
463.5903182826
 20
251.6342580686
 11
448.5903182826
 21
251.6342580686
  0
LINE
  8
2_COSMETICS
 62
8
  6
PHANTOM
 10
138.0903182826
 20
251.6342580686
 11
153.0903182826
 21
251.6342580686
  0
LINE
  8
2_COSMETICS
 62
8
  6
PHANTOM
 10
187.5903182826
 20
251.6342580686
 11
202.5903182826
 21
251.6342580686
  0
LINE
  8
2_COSMETICS
 62
7
  6
CONTINUOUS
 10
452.5903182826
 20
194.9342580686
 11
452.5903182826
 21
177.1342580686
  0
LINE
  8
2_COSMETICS
 62
8
  6
PHANTOM
 10
463.5903182826
 20
251.6342580686
 11
463.5903182826
 21
236.6342580686
  0
LINE
  8
2_COSMETICS
 62
8
  6
PHANTOM
 10
463.5903182826
 20
160.1342580686
 11
463.5903182826
 21
175.1342580686
  0
ARC
  8
2_COSMETICS
 62
7
  6
CONTINUOUS
 10
213.5903182826
 20
179.6342580686
 40
15.0
 50
180.0
 51
270.0
  0
ARC
  8
2_COSMETICS
 62
7
  6
CONTINUOUS
 10
213.5903182826
 20
201.8342580686
 40
15.0
 50
90.0
 51
180.0
  0
ARC
  8
2_COSMETICS
 62
7
  6
CONTINUOUS
 10
445.5903182826
 20
194.9342580686
 40
7.0
 50
0.0
 51
90.0
  0
ARC
  8
2_COSMETICS
 62
7
  6
CONTINUOUS
 10
445.5903182826
 20
177.1342580686
 40
7.0
 50
270.0
 51
360.0
  0
ARC
  8
2_COSMETICS
 62
7
  6
CONTINUOUS
 10
245.0903182826
 20
167.6342580686
 40
2.5
 50
90.0
 51
180.0
  0
ARC
  8
2_COSMETICS
 62
7
  6
CONTINUOUS
 10
240.0903182826
 20
167.1342580686
 40
2.5
 50
270.0
 51
360.0
  0
ARC
  8
2_COSMETICS
 62
7
  6
CONTINUOUS
 10
240.0903182826
 20
214.3342580686
 40
2.5
 50
0.0
 51
90.0
  0
ARC
  8
2_COSMETICS
 62
7
  6
CONTINUOUS
 10
245.0903182826
 20
204.4342580686
 40
2.5
 50
180.0
 51
270.0
  0
CIRCLE
  8
2_COSMETICS
 62
7
  6
CONTINUOUS
 10
450.5903182826
 20
217.3342580686
 40
2.25
  0
CIRCLE
  8
2_COSMETICS
 62
7
  6
CONTINUOUS
 10
450.5903182826
 20
165.1342580686
 40
2.25
  0
CIRCLE
  8
2_COSMETICS
 62
7
  6
CONTINUOUS
 10
200.5903182826
 20
165.1342580686
 40
2.25
  0
CIRCLE
  8
2_COSMETICS
 62
7
  6
CONTINUOUS
 10
200.5903182826
 20
217.3342580686
 40
2.25
  0
CIRCLE
  8
2_COSMETICS
 62
7
  6
CONTINUOUS
 10
325.5903182826
 20
217.3342580686
 40
2.25
  0
CIRCLE
  8
2_COSMETICS
 62
7
  6
CONTINUOUS
 10
325.5903182826
 20
165.1342580686
 40
2.25
  0
ENDSEC
  0
EOF
