999
DXF file: 4473979_6.dxf
999
Pro/ENGINEER 2014090 by Parametric Technology Corporation
  0
SECTION
  2
HEADER
  9
$EXTMAX
 10
420.0
 20
297.0
 30
0.0
  9
$EXTMIN
 10
0.0
 20
0.0
 30
0.0
  9
$LIMMIN
 10
0.0
 20
0.0
  9
$LIMMAX
 10
420.0
 20
297.0
  9
$VIEWCTR
 10
210.0
 20
148.5
  9
$VIEWSIZE
 40
297.0
  9
$CLAYER
  8
0
  9
$LTSCALE
 40
23.1
  9
$CELTYPE
  6
BYLAYER
  9
$DIMSCALE
 40
1.0
  9
$DIMASZ
 40
3.5
  9
$DIMEXO
 40
0.0
  9
$DIMDLI
 40
15.96
  9
$DIMEXE
 40
2.0
  9
$DIMCEN
 40
3.78
  9
$DIMLFAC
 40
1.0
  9
$DIMBLK
  1
_FILLED
  9
$DIMTXT
 40
3.5
  9
$AUNITS
 70
0
  9
$PDMODE
 70
3
  9
$PDSIZE
 40
0.1
  9
$TILEMODE
 70
1
  0
ENDSEC
  0
SECTION
  2
TABLES
  0
TABLE
  2
LTYPE
 70
6
  0
LTYPE
  2
BYBLOCK
 70
0
  3

 72
65
 73
0
 40
0.0
  0
LTYPE
  2
BYLAYER
 70
0
  3

 72
65
 73
0
 40
0.0
  0
LTYPE
  2
CONTINUOUS
 70
64
  3
Solid line
 72
65
 73
0
 40
0.0
  0
LTYPE
  2
CENTER
 70
64
  3
____ _ ____ _ ____ _ ____ _ ____ _ ____ _ ____
 72
65
 73
4
 40
0.6
 49
0.375
 49
-0.075
 49
0.075
 49
-0.075
  0
LTYPE
  2
HIDDEN
 70
64
  3
- - - - - - - - - - - - - - - - - - - -
 72
65
 73
2
 40
0.2
 49
0.1
 49
-0.1
  0
LTYPE
  2
PHANTOM
 70
64
  3
_____ _ _ _____ _ _ _____ _ _ _____
 72
65
 73
6
 40
0.8
 49
0.45
 49
-0.05
 49
0.1
 49
-0.05
 49
0.1
 49
-0.05
  0
LTYPE
  2
DOT
 70
64
  3
. . . . . . . . . . . . . . . . . . . .
 72
65
 73
2
 40
0.2
 49
0.1
 49
-0.1
  0
LTYPE
  2
DASHED
 70
64
  3
- - - - - - - - - - - - - - - - - - - -
 72
65
 73
2
 40
0.2
 49
0.1
 49
-0.1
  0
ENDTAB
  0
TABLE
  2
LAYER
 70
36
  0
LAYER
  2
0
 70
0
 62
7
  6
CONTINUOUS
  0
LAYER
  2
DEFAULT_1
 70
0
 62
7
  6
CENTER
  0
LAYER
  2
DEFAULT_2
 70
0
 62
8
  6
HIDDEN
  0
LAYER
  2
DEFAULT_3
 70
0
 62
7
  6
PHANTOM
  0
LAYER
  2
0_P_DRW_ONLY
 70
0
 62
7
  6
CONTINUOUS
  0
LAYER
  2
0_P_SEAL_ELEMENTS
 70
0
 62
7
  6
CONTINUOUS
  0
LAYER
  2
0_P_THREAD_BLUE_SURFACE
 70
0
 62
7
  6
CONTINUOUS
  0
LAYER
  2
0_P_VIS_3D_VISUAL
 70
0
 62
7
  6
CONTINUOUS
  0
LAYER
  2
1_P_AXES
 70
0
 62
7
  6
CONTINUOUS
  0
LAYER
  2
1_P_CSYS
 70
0
 62
7
  6
CONTINUOUS
  0
LAYER
  2
1_P_PLACE_ELEMENTS
 70
0
 62
7
  6
CONTINUOUS
  0
LAYER
  2
1_P_PLANES
 70
0
 62
7
  6
CONTINUOUS
  0
LAYER
  2
1_P_STANDARDS
 70
0
 62
7
  6
CONTINUOUS
  0
LAYER
  2
1_P_THREAD_NOTES
 70
0
 62
7
  6
CONTINUOUS
  0
LAYER
  2
2_3D_ANNOTATION
 70
0
 62
7
  6
CONTINUOUS
  0
LAYER
  2
2_A_3D_ANNOTATION
 70
0
 62
7
  6
CONTINUOUS
  0
LAYER
  2
2_COSMETICS
 70
0
 62
7
  6
CONTINUOUS
  0
LAYER
  2
2_CURVES
 70
0
 62
7
  6
CONTINUOUS
  0
LAYER
  2
2_ECG
 70
0
 62
7
  6
CONTINUOUS
  0
LAYER
  2
2_ECG_3D_ANNOTATION
 70
0
 62
7
  6
CONTINUOUS
  0
LAYER
  2
2_ECG_ASM_BASED
 70
0
 62
7
  6
CONTINUOUS
  0
LAYER
  2
2_ECG_CURVES
 70
0
 62
7
  6
CONTINUOUS
  0
LAYER
  2
2_ECG_DATUM
 70
0
 62
7
  6
CONTINUOUS
  0
LAYER
  2
2_ECG_SURFACES
 70
0
 62
7
  6
CONTINUOUS
  0
LAYER
  2
2_POINTS
 70
0
 62
7
  6
CONTINUOUS
  0
LAYER
  2
2_P_TEMP
 70
0
 62
7
  6
CONTINUOUS
  0
LAYER
  2
2_P_THREAD
 70
0
 62
7
  6
CONTINUOUS
  0
LAYER
  2
2_QUILTS
 70
0
 62
7
  6
CONTINUOUS
  0
LAYER
  2
2_SKETCH
 70
0
 62
7
  6
CONTINUOUS
  0
LAYER
  2
2_SURFACES
 70
0
 62
7
  6
CONTINUOUS
  0
LAYER
  2
2_SURFACES_TEMP
 70
0
 62
7
  6
CONTINUOUS
  0
LAYER
  2
2_TABLES
 70
0
 62
7
  6
CONTINUOUS
  0
LAYER
  2
2_TABLES_HIDDEN
 70
0
 62
7
  6
CONTINUOUS
  0
LAYER
  2
2_VOLGEOM
 70
0
 62
7
  6
CONTINUOUS
  0
LAYER
  2
3_P_USER_WORKBENCH
 70
0
 62
7
  6
CONTINUOUS
  0
LAYER
  2
4_D_DRW_AUSSENMASS
 70
0
 62
7
  6
CONTINUOUS
  0
LAYER
  2
4_D_DRW_AUSSPARUNG
 70
0
 62
7
  6
CONTINUOUS
  0
LAYER
  2
4_D_DRW_LAGE_BOHRUNGEN
 70
0
 62
7
  6
CONTINUOUS
  0
LAYER
  2
4_D_DRW_LAGE_BOHRUNGEN_AUSSEN
 70
0
 62
7
  6
CONTINUOUS
  0
LAYER
  2
4_D_DRW_LAGE_BOHRUNGEN_INNEN
 70
0
 62
7
  6
CONTINUOUS
  0
LAYER
  2
4_D_DRW_LAGE_BOHRUNGEN_MITTE
 70
0
 62
7
  6
CONTINUOUS
  0
LAYER
  2
4_D_DRW_MAS
 70
0
 62
7
  6
CONTINUOUS
  0
LAYER
  2
NOTIZEN
 70
0
 62
7
  6
CONTINUOUS
  0
LAYER
  2
XSEC_DATUMS
 70
0
 62
7
  6
CONTINUOUS
  0
ENDTAB
  0
TABLE
  2
STYLE
 70
1
  0
STYLE
  2
STANDARD
 70
0
 40
0.0
 41
1.0
 50
0.0
 71
0
 42
0.2
  3
txt
  4

  0
STYLE
  2
TEXTSTYLE_1
 70
0
 40
0.0
 41
0.8
 50
0.0
 71
0
 42
0.2
  3
gdt
  4

  0
ENDTAB
  0
ENDSEC
  0
SECTION
  2
BLOCKS
  0
ENDSEC
  0
SECTION
  2
ENTITIES
  0
TEXT
  8
0
 62
5
  6
CONTINUOUS
 10
203.5921311992
 20
246.1374829587
  7
STANDARD
 40
3.5
  1
FESTO 
 41
0.8055555556
 72
0
  0
TEXT
  8
0
 62
5
  6
CONTINUOUS
 10
203.5921311992
 20
240.8874829587
  7
STANDARD
 40
3.5
  1
VTUG-18
 41
0.7619047619
 72
0
  0
TEXT
  8
0
 62
5
  6
CONTINUOUS
 10
203.5921311992
 20
235.6374829587
  7
STANDARD
 40
3.5
  1
8 Ventilplätze
 41
0.6887755102
 72
0
  0
TEXT
  8
0
 62
5
  6
CONTINUOUS
 10
203.5921311992
 20
230.3874829587
  7
STANDARD
 40
3.5
  1
8 valve positions
 41
0.6834733894
 72
0
  0
LINE
  8
0_P_DRW_ONLY
 62
7
  6
PHANTOM
 10
71.5
 20
84.5
 11
71.5
 21
99.5
  0
LINE
  8
0_P_DRW_ONLY
 62
7
  6
PHANTOM
 10
71.5
 20
200.5
 11
71.5
 21
215.5
  0
LINE
  8
0_P_DRW_ONLY
 62
7
  6
PHANTOM
 10
113.0
 20
215.5
 11
113.0
 21
200.5
  0
LINE
  8
0_P_DRW_ONLY
 62
7
  6
PHANTOM
 10
113.0
 20
84.5
 11
113.0
 21
99.5
  0
LINE
  8
0_P_DRW_ONLY
 62
7
  6
CONTINUOUS
 10
128.0
 20
107.5
 11
128.0
 21
161.0
  0
LINE
  8
0_P_DRW_ONLY
 62
7
  6
PHANTOM
 10
328.5
 20
84.5
 11
313.5
 21
84.5
  0
LINE
  8
0_P_DRW_ONLY
 62
7
  6
PHANTOM
 10
71.5
 20
84.5
 11
86.5
 21
84.5
  0
LINE
  8
0_P_DRW_ONLY
 62
7
  6
PHANTOM
 10
113.0
 20
84.5
 11
128.0
 21
84.5
  0
LINE
  8
0_P_DRW_ONLY
 62
7
  6
CONTINUOUS
 10
188.0
 20
92.5
 11
143.0
 21
92.5
  0
LINE
  8
0_P_DRW_ONLY
 62
7
  6
CONTINUOUS
 10
313.5
 20
107.0
 11
194.0
 21
107.0
  0
LINE
  8
0_P_DRW_ONLY
 62
7
  6
CONTINUOUS
 10
191.0
 20
173.0
 11
191.0
 21
160.0
  0
LINE
  8
0_P_DRW_ONLY
 62
7
  6
CONTINUOUS
 10
191.0
 20
104.0
 11
191.0
 21
95.5
  0
LINE
  8
0_P_DRW_ONLY
 62
7
  6
CONTINUOUS
 10
194.0
 20
157.0
 11
313.5
 21
157.0
  0
LINE
  8
0_P_DRW_ONLY
 62
7
  6
CONTINUOUS
 10
143.0
 20
176.0
 11
188.0
 21
176.0
  0
LINE
  8
0_P_DRW_ONLY
 62
7
  6
PHANTOM
 10
328.5
 20
215.5
 11
313.5
 21
215.5
  0
LINE
  8
0_P_DRW_ONLY
 62
7
  6
PHANTOM
 10
71.5
 20
215.5
 11
86.5
 21
215.5
  0
LINE
  8
0_P_DRW_ONLY
 62
7
  6
PHANTOM
 10
113.0
 20
215.5
 11
128.0
 21
215.5
  0
LINE
  8
0_P_DRW_ONLY
 62
7
  6
CONTINUOUS
 10
316.5
 20
154.0
 11
316.5
 21
110.0
  0
LINE
  8
0_P_DRW_ONLY
 62
7
  6
PHANTOM
 10
328.5
 20
215.5
 11
328.5
 21
200.5
  0
LINE
  8
0_P_DRW_ONLY
 62
7
  6
PHANTOM
 10
328.5
 20
84.5
 11
328.5
 21
99.5
  0
ARC
  8
0_P_DRW_ONLY
 62
7
  6
CONTINUOUS
 10
143.0
 20
107.5
 40
15.0
 50
180.0
 51
270.0
  0
ARC
  8
0_P_DRW_ONLY
 62
7
  6
CONTINUOUS
 10
143.0
 20
161.0
 40
15.0
 50
90.0
 51
180.0
  0
CIRCLE
  8
0_P_DRW_ONLY
 62
7
  6
CONTINUOUS
 10
126.0
 20
171.0
 40
3.0
  0
CIRCLE
  8
0_P_DRW_ONLY
 62
7
  6
CONTINUOUS
 10
126.0
 20
92.0
 40
3.0
  0
CIRCLE
  8
0_P_DRW_ONLY
 62
7
  6
CONTINUOUS
 10
315.5
 20
171.0
 40
3.0
  0
CIRCLE
  8
0_P_DRW_ONLY
 62
7
  6
CONTINUOUS
 10
315.5
 20
92.0
 40
3.0
  0
CIRCLE
  8
0_P_DRW_ONLY
 62
7
  6
CONTINUOUS
 10
220.75
 20
92.0
 40
3.0
  0
CIRCLE
  8
0_P_DRW_ONLY
 62
7
  6
CONTINUOUS
 10
220.75
 20
171.0
 40
3.0
  0
ARC
  8
0_P_DRW_ONLY
 62
7
  6
CONTINUOUS
 10
188.0
 20
95.5
 40
3.0
 50
270.0
 51
360.0
  0
ARC
  8
0_P_DRW_ONLY
 62
7
  6
CONTINUOUS
 10
194.0
 20
104.0
 40
3.0
 50
90.0
 51
180.0
  0
ARC
  8
0_P_DRW_ONLY
 62
7
  6
CONTINUOUS
 10
313.5
 20
110.0
 40
3.0
 50
270.0
 51
360.0
  0
ARC
  8
0_P_DRW_ONLY
 62
7
  6
CONTINUOUS
 10
313.5
 20
154.0
 40
3.0
 50
0.0
 51
90.0
  0
ARC
  8
0_P_DRW_ONLY
 62
7
  6
CONTINUOUS
 10
194.0
 20
160.0
 40
3.0
 50
180.0
 51
270.0
  0
ARC
  8
0_P_DRW_ONLY
 62
7
  6
CONTINUOUS
 10
188.0
 20
173.0
 40
3.0
 50
0.0
 51
90.0
  0
ENDSEC
  0
EOF
